Home Music Articles Forums Blog Chat More...      

The Irish Song(Extended)


by

DOS

 Genre: Folk (contemporary)
No artwork

Get Flash to see this player.

Description
Oh man, I was practiseing this song for along time and Now Look at it. I really love this Track.
Leave a Comment
You must be registered and logged-in to comment.
Lyrics
this song takes Standard Tuning.

Intro/Chorus

-4-4-2-2-4-2-4-5---4-4-2-2-4-2-0-2-0-0-2-2-4-4-5-5-------------------------
---------------------------------------------------------------------------
---------------------------------------------------------------------------
---------------------------------------------------------------------------
---------------------------------------------------------------------------
---------------------------------------------------------------------------


-2-2-2-2-4-2-0-2-2-2-2-4-5-4-2-0-2-4-5-4-2-0-2-----------------------------
-0-0-0-0-0-0-0-0-0-0-0-0-0-0-0-0-0-0-0-0-0-0-0-----------------------------
---------------------------------------------------------------------------
---------------------------------------------------------------------------
---------------------------------------------------------------------------

Alittle Strumming here
--0-0-0-0-2-2-2-2-4-4-4-4-5-4-2-0-2----------------------------------------
--0-0-0-0-0-0-0-0-0-0-0-0-0-0-0-0-0----------------------------------------
---------------------------------------------------------------------------
---------------------------------------------------------------------------
---------------------------------------------------------------------------
---------------------------------------------------------------------------

First verse

4---4---4---4---2--2---2---2---4---4----4----4---5----5----5---5-------------0---0---0---0---0---0---0---0---0---0---0---0---0----0----0---0-------------------------------------------------------------------------------------------------------------------------------------------------------------------------------------------------------------------------------------------------------------------------------------------------------------------------------

Chorus
-4-4-2-2-4-2-4-5---4-4-2-2-4-2-0-2-0-0-2-2-4-4-5-5-------------------------
---------------------------------------------------------------------------
---------------------------------------------------------------------------
---------------------------------------------------------------------------
---------------------------------------------------------------------------
---------------------------------------------------------------------------

--4-2-0-2--4-2-0-2--4-2-0-2-4-5-4-2-0-2------------------------------------
---------------------------------------------------------------------------
---------------------------------------------------------------------------
---------------------------------------------------------------------------
---------------------------------------------------------------------------
---------------------------------------------------------------------------

--0-0-0-0-2-2-2-2-4-4-4-4-5-4-2-0-2----------------------------------------
--0-0-0-0-0-0-0-0-0-0-0-0-0-0-0-0-0----------------------------------------
---------------------------------------------------------------------------
---------------------------------------------------------------------------
---------------------------------------------------------------------------
---------------------------------------------------------------------------

Second Verse

--4-0-2-4-2-0-5-0-5-4-5-4-2-0-2--------------------------------------------
---------------------------------------------------------------------------
---------------------------------------------------------------------------
------------------------------------------------------------------------------------------------------------------------------------------------------
---------------------------------------------------------------------------

--4-0-2-4-2-0-5-0-5-4-5-4-2-0-2--------------------------------------------
--0-0-0-0-0-0-0-0-0-0-0-0-0-0-0--------------------------------------------
---------------------------------------------------------------------------
------------------------------------------------------------------------------------------------------------------------------------------------------
---------------------------------------------------------------------------

--4-0-2-4-2-0-5-0-5-4-5-4-2-0-2---0-2-4-5-5-5-5-4-2o-----------------------
---------------------------------------------------------------------------
---------------------------------------------------------------------------
------------------------------------------------------------------------------------------------------------------------------------------------------
---------------------------------------------------------------------------
Song Stats
Hits: 3267
Comments: 27
Fans: 0
Plays: 434
Downloads: 183
Votes: 6
Uploaded: Aug 28, 2005 - 09:07:38 PM
Last Updated: Nov 02, 2005 - 03:17:03 PM Last Played: Jan 19, 2018 - 04:37:52 PM
Song License
Creative Commons License:
Attribution-NonCommercial

Creative Commons

Song Actions
share on facebook share on twitter download song
Comments
blacksalad said 4710 days ago (August 29th, 2005)
sweet
you have some sweet skills DOS

---
BlackSalad
SaladBloodySalad
said 4709 days ago (August 29th, 2005)
you have
been practicing, haven' you?
very good DOS, keep practicing man,
I already heard improvement in your
guitar playing.
Very nice that you are open minded and
into many different styles of music.
DOS said 4709 days ago (August 29th, 2005)
you have
Oh yeah and lots of it. I just love playing that song for friends and family. And thanks guys for leaving comments on this track.

---
Deadication of Sufacation
Check out my latest song called The Poor Little Girls of Ontario
blamm said 4705 days ago (September 2nd, 2005)
Good progress, man.
Next steps...work on trying to reduce the ambient noise
on your recording (edit out the buzzing air at the
beginning at least) and practice your arse off with the
metronome. You'll have the chops in no time...practice is
everything, and I'm horrible about practicing...so trust me
on this one :) Keep it up. Your enthusiasm is contagious.
Check out my latest song called A Long December (Counting Crows Cover)
DeputyDoofy said 4704 days ago (September 4th, 2005)
Pretty cool
Some nice guitar playing. I need to check out the rest of your stuff.
Check out my latest song called A-hole F'er
said 4702 days ago (September 5th, 2005)
I like where you're heading
Have fun, practice (unlike what I did at your age ... I can't
play), try new things. You're doing all three.
I agree with the ambient noise suggestion (this is minor
issue) and practice rhythms. Keep in mind that the
metronome only keeps one in tempo - it doesn't supply the
rhythm.
Sarutobi said 4646 days ago (October 31st, 2005)
folk
its always cool to hear folk guitar i always find it interesting that european
folk sounds eastern sometimes

Check out my latest song called How Could You Leave Me
Sarutobi said 4646 days ago (October 31st, 2005)
folk
its always cool to hear folk guitar i always find it interesting that european
folk sounds eastern sometimes

Check out my latest song called How Could You Leave Me
Sarutobi said 4646 days ago (October 31st, 2005)
folk
its always cool to hear folk guitar i always find it interesting that european
folk sounds eastern sometimes

Check out my latest song called How Could You Leave Me
Sarutobi said 4646 days ago (October 31st, 2005)
folk
its always cool to hear folk guitar i always find it interesting that european
folk sounds eastern sometimes

Check out my latest song called How Could You Leave Me
Sarutobi said 4646 days ago (October 31st, 2005)
folk
its always cool to hear folk guitar i always find it interesting that european
folk sounds eastern sometimes

Check out my latest song called How Could You Leave Me
Sarutobi said 4646 days ago (October 31st, 2005)
folk
its always cool to hear folk guitar i always find it interesting that european
folk sounds eastern sometimes

Check out my latest song called How Could You Leave Me
Sarutobi said 4646 days ago (October 31st, 2005)
folk
its always cool to hear folk guitar i always find it interesting that european
folk sounds eastern sometimes

Check out my latest song called How Could You Leave Me
Sarutobi said 4646 days ago (October 31st, 2005)
folk
its always cool to hear folk guitar i always find it interesting that european
folk sounds eastern sometimes

Check out my latest song called How Could You Leave Me
Sarutobi said 4646 days ago (October 31st, 2005)
folk
its always cool to hear folk guitar i always find it interesting that european
folk sounds eastern sometimes

Check out my latest song called How Could You Leave Me
Sarutobi said 4646 days ago (October 31st, 2005)
folk
its always cool to hear folk guitar i always find it interesting that european
folk sounds eastern sometimes

Check out my latest song called How Could You Leave Me
Sarutobi said 4646 days ago (October 31st, 2005)
folk
its always cool to hear folk guitar i always find it interesting that european
folk sounds eastern sometimes

Check out my latest song called How Could You Leave Me
Sarutobi said 4646 days ago (October 31st, 2005)
folk
its always cool to hear folk guitar i always find it interesting that european
folk sounds eastern sometimes

Check out my latest song called How Could You Leave Me
Sarutobi said 4646 days ago (October 31st, 2005)
folk
its always cool to hear folk guitar i always find it interesting that european
folk sounds eastern sometimes

Check out my latest song called How Could You Leave Me
Sarutobi said 4646 days ago (October 31st, 2005)
folk
its always cool to hear folk guitar i always find it interesting that european
folk sounds eastern sometimes

Check out my latest song called How Could You Leave Me
Sarutobi said 4646 days ago (October 31st, 2005)
folk
its always cool to hear folk guitar i always find it interesting that european
folk sounds eastern sometimes

Check out my latest song called How Could You Leave Me
Sarutobi said 4646 days ago (October 31st, 2005)
folk
its always cool to hear folk guitar i always find it interesting that european
folk sounds eastern sometimes

Check out my latest song called How Could You Leave Me
Sarutobi said 4646 days ago (October 31st, 2005)
folk
its always cool to hear folk guitar i always find it interesting that european
folk sounds eastern sometimes

Check out my latest song called How Could You Leave Me
Sarutobi said 4646 days ago (October 31st, 2005)
folk
its always cool to hear folk guitar i always find it interesting that european
folk sounds eastern sometimes

Check out my latest song called How Could You Leave Me
Sarutobi said 4646 days ago (October 31st, 2005)
folk
its always cool to hear folk guitar i always find it interesting that european
folk sounds eastern sometimes

Check out my latest song called How Could You Leave Me
Sarutobi said 4646 days ago (October 31st, 2005)
folk
its always cool to hear folk guitar i always find it interesting that european
folk sounds eastern sometimes

Check out my latest song called How Could You Leave Me
Sarutobi said 4646 days ago (October 31st, 2005)
folk
its always cool to hear folk guitar i always find it interesting that european
folk sounds eastern sometimes

Check out my latest song called How Could You Leave Me
Fan List
Artist Info
artist photo
Name: Deadication Of Sufacation
Location: Quebec Canada
send a note

Check out some of my other songs:

Chat
Who's Online
167US
Invisible Members: 0
Visitors: 74
Links